Some Hearts


      C             G              F               G
e------------------------------------------------3-----------------------------
b----1-------------1----------------1------------0-----0-----------------------
g------0-------------0----------------2---2------0-------0---------------------
d-------0-0-0-----------0-0-0-----------3---3----0-------------0---------------
a-3-----------2-----------------3----------------2----------2------------------
e------------------------------------------------3-----------------------------
(throughout verses)
VERSE
C                     G
Some Hearts are made for loving
F                     G
Some hearts are made of stone
C                     G
Some people forget they have em
F                     G
Others think their's are made of gold


CHORUS
C                         F
You talk while the music's playing
C                         F
you cry when the music stops
C                         F
You're so fraid of what their sayin
C                         F       G
Everybody's gotta stay on top....yeah


VERSE
The winter keeps getting colder
The sun keeps tryin to shine
Each day I get a little bit older 
each night I'm in the same old bind

I drink to you we drink to each other
and talk abouts the good old flings
When the bottles gone we buy another
Some things never change

CHORUS

VERSE
My friend I thought you knew
that    i    cared
Maybe you're still lookin for a kiss
remember I'm still here

Some hearts are made for loving
Some hearts are made of stone
Some people forget they have em
Others think there's are made of gold




To get the intro down it's real easy if you use these weird chords:
    C/D? G/C?  F    G
  e--0----x----x----3------------------
  b--1----1----1----0------------------
  g--0----0----2----0------------------
  d--0----0----3----0------------------
  a--3----2----3----2------------------
  e--x----x----x----3------------------
If you're using two guitars it sounds fine if one just plays 
these normal chords:
     C    G    F    G
  e--0----3----1----3----------------------
  b--1----0----1----0----------------------
  g--0----0----2----0----------------------
  d--2----0----3----0----------------------
  a--3----2----3----2----------------------
  e--0----3----1----3----------------------

Transcribed by Franky


Last modified: November 16, 1997
From The Johnny Thunders Cyber Lounge
Manager: Chris Ridpath: ifftay@echo-on.net